==谱天下==周杰伦-七里香,吉他谱,六线谱,简谱,吉它弹唱谱,图片吉他谱
 |  首页 |  歌手谱库 |  在线吉他调弦 |  在线节拍器 |  阿潘音乐工场 |
分类频道列表:  [吉他谱(谱天下编配)] - [吉他弹唱谱] - [古典吉他谱] - [吉他独奏谱] - [乐队总谱] - [合唱谱] - [钢琴谱] - [简谱] - [文字吉他谱]
[萨克斯谱] - [二胡谱] - [笛箫谱] - [古筝谱] - [电子琴谱] - [手风琴谱]

《七里香》
 归属歌手:周杰伦
 更新日期:2008-08-07
 乐谱类别:吉他弹唱谱
 难度等级:
 传谱来源:网络谱友 [ 一毛不拔 ] 上传
 
 阅谱时,双击鼠标屏幕自动滚动,单击即停止。
 滚屏速度 慢<< >>快  
 

 Am   
e|-----------------0--------------------------repeat-------------------------|
B|-------1-3-1---1---3-1-------------3-5-3-1---------------------------------|
G|---0-2-----2---2-------2h5-2---2-5-----------------------------------------|
D|-------------2---------------5---------------------------------------------|
A|---------------------------------------------------------------------------|
E|---------------------------------------------------------------------------|
    Am      F       G       C
e|---------------------------------------------------------------------------|
B|--1---1---1---1---0---0---1---1--------------------------------------------|
G|--2---2---2---2---0---0---0---0--------------------------------------------|
D|----2---0---3---3---0---0---2---2------------------------------------------|
A|--0-------3---------------3------------------------------------------------|
E|------------------3--------------------------------------------------------|
  窗外 的麻 雀    在电线杆上多嘴

    Em      F       G       C
e|---------------------------------------------------------------------------|
B|--0---0---1---1---0---0---1---1--------------------------------------------|
G|--0---0---2---2---0---0---0---0--------------------------------------------|
D|----2---0---3---3---0---0---2---2------------------------------------------|
A|--2-------3---------------3------------------------------------------------|
E|------------------3--------------------------------------------------------|
  你说 这 一句    很有夏天的感觉

    Am      F       G       C
e|---------------------------------------------------------------------------|
B|--1---1---1---1---0---0---1---1--------------------------------------------|
G|--2---2---2---2---0---0---0---0--------------------------------------------|
D|----2---0---3---3---0---0---2---2------------------------------------------|
A|--0-------3---------------3------------------------------------------------|
E|------------------3--------------------------------------------------------|
  手中 的铅 笔    在纸上来来回回

    Em      F       G       C
e|---------------------------------------------------------------------------|
B|--0---0---1---1---0---0---1---1--------------------------------------------|
G|--0---0---2---2---0---0---0---0--------------------------------------------|
D|----2---0---3---3---0---0---2---2------------------------------------------|
A|--2-------3---------------3------------------------------------------------|
E|------------------3--------------------------------------------------------|
  我用几 行 字    形容你是我的谁

(以下位扫弦,大家可以自由发挥)

      Am     F      G        C
  秋刀鱼 的滋味 猫跟你都想了解 

     Em     F      G        C
   初恋的香味  就这样被我们寻回

      Am     F      G        C
   那温暖 的阳光 像刚摘的鲜艳草莓

     Em     F      G        C
   你说你舍不得吃掉这一种感觉

   AM     F     G        C
   雨下整夜 我的爱溢出就像雨水
   AM     F     G        C
   院子落叶 跟我的思念厚厚一叠
   AM     F     G        C
   几句是非 也无法将我的热情冷却
    F      G       C
   你出现在我诗的每一页 


间奏

    D
e|--0---0---0---0---0---3---0---3---0---0---0---0---0---3--------------------|
B|--------3-------3-------3-------3-------3-------3-------3------------------|
G|----2-------2-------2-------2-------2-------2-------2----------------------|
D|---------------------------------------------------------------------------|
A|---------------------------------------------------------------------------|
E|---------------------------------------------------------------------------|

   AM     F     G        C
   雨下整夜 我的爱溢出就像雨水
   AM     F     G        C
   院子落叶 跟我的思念厚厚一叠
   AM     F     G        C
   几句是非 也无法将我的热情冷却
    F      G       C
   你出现在我诗的每一页 
   AM     F       G       C
   窗台蝴蝶 像诗里纷飞的美丽章节
   AM     F       G       C
   我接著写 把永远爱你写进诗的结尾
   F       G       C 
   你是我唯一想要的了解



         Am   
e|-----------------0--------------------------repeat-------------------------|
B|-------1-3-1---1---3-1-------------3-5-3-1---------------------------------|
G|---0-2-----2---2-------2h5-2---2-5-----------------------------------------|
D|-------------2---------------5---------------------------------------------|
A|---------------------------------------------------------------------------|
E|---------------------------------------------------------------------------|
    Am      F       G       C
e|---------------------------------------------------------------------------|
B|--1---1---1---1---0---0---1---1--------------------------------------------|
G|--2---2---2---2---0---0---0---0--------------------------------------------|
D|----2---0---3---3---0---0---2---2------------------------------------------|
A|--0-------3---------------3------------------------------------------------|
E|------------------3--------------------------------------------------------|
  那饱满的稻穗   幸福了这个季节

    Em      F       G       C
e|---------------------------------------------------------------------------|
B|--0---0---1---1---0---0---1---1--------------------------------------------|
G|--0---0---2---2---0---0---0---0--------------------------------------------|
D|----2---0---3---3---0---0---2---2------------------------------------------|
A|--2-------3---------------3------------------------------------------------|
E|------------------3--------------------------------------------------------|
  而你的 脸颊    像田里熟透的蕃茄

    Am      F       G       C
e|---------------------------------------------------------------------------|
B|--1---1---1---1---0---0---1---1--------------------------------------------|
G|--2---2---2---2---0---0---0---0--------------------------------------------|
D|----2---0---3---3---0---0---2---2------------------------------------------|
A|--0-------3---------------3------------------------------------------------|
E|------------------3--------------------------------------------------------|
  你突然 对我说 七里香的名字很美

    Em      F       G       C
e|---------------------------------------------------------------------------|
B|--0---0---1---1---0---0---1---1--------------------------------------------|
G|--0---0---2---2---0---0---0---0--------------------------------------------|
D|----2---0---3---3---0---0---2---2------------------------------------------|
A|--2-------3---------------3------------------------------------------------|
E|------------------3--------------------------------------------------------|
  我此刻却只想   亲吻你倔强的嘴



   AM     F     G        C
   雨下整夜 我的爱溢出就像雨水
   AM     F     G        C
   院子落叶 跟我的思念厚厚一叠
   AM     F     G        C
   几句是非 也无法将我的热情冷却
    F      G       C
   你出现在我诗的每一页 
   AM     F       G       C
   窗台蝴蝶 像诗里纷飞的美丽章节
   AM     F       G       C
   我接著写 把永远爱你写进诗的结尾
   F       G       C 
   你是我唯一想要的了解

| /  上滑
| \  下滑
| h  击弦
| p  推弦
| ~  颤音
| +  和声
| x  闷音
===============================================================================
 
◎同类乐谱: [上一篇] 张敬轩-《无能为力》  [下一篇] 范晓萱-《雪人》
::艺人相关推荐:: ::来源相关推荐::
谱名 艺人 乐谱类别 来源  
断了的弦 周杰伦 [吉他弹唱谱] [ sulam ]  
蒲公英的约定(简单 ... 周杰伦 [钢琴谱] [ 紫丹罗茶 ... ]  
七里香 周杰伦 [吉他弹唱谱] [ 全麦饼干 ... ]  
上海一九四三 周杰伦 [吉他弹唱谱] [ 蓝浴 ]  
我的地盘(钢琴谱 ... 周杰伦 [钢琴谱] [ 歌手小乌 ... ]  
夜曲 周杰伦 [吉他弹唱谱] [ 省分公司 ... ]  
谱名 艺人 乐谱类别 来源
地心引力 言承旭 [吉他弹唱谱] [ 一毛不拔 ... ]
下雨的时候会想你 ... 阿杜 [吉他弹唱谱] [ 一毛不拔 ... ]
我的秋天 许巍 [吉他弹唱谱] [ 一毛不拔 ... ]
不装饰你的梦 蔡国权 [吉他弹唱谱] [ 一毛不拔 ... ]
FRIEND 押尾桑 [吉他弹唱谱] [ 一毛不拔 ... ]
WIND SONG原版谱 押尾桑 [吉他弹唱谱] [ 一毛不拔 ... ]
分类频道列表:  [吉他谱(谱天下编配)] - [吉他弹唱谱] - [古典吉他谱] - [吉他独奏谱] - [乐队总谱] - [合唱谱] - [钢琴谱] - [简谱] - [文字吉他谱]
[萨克斯谱] - [二胡谱] - [笛箫谱] - [古筝谱] - [电子琴谱] - [手风琴谱]
谱友评论  
请在首页登录,即可发表高论。
==友情链接==

谱天下 缘分吉他 E网音乐教室 吉他谱 虫虫吉他
吉他中国 风华艺校  吉他世界网 大众乐谱网 一叶文字
搜谱 枫儿音乐 和讯弹吉他 民谣吉他 六弦琴吉他网
  中国曲谱网 中国吉他村    
        [友情链接(PR>=3)]

建议使用1024*768以上分辨率,IE5.5以上浏览器浏览本站
版权所有:谱天下专业乐谱网  苏ICP备07012261号 Email:putx123@163.com
CopyRight 2007 © www.ptx123.com, All Rights Reserved.