==谱天下==刘德华-我得你,吉他谱,六线谱,简谱,吉它弹唱谱,图片吉他谱
 |  首页 |  歌手谱库 |  在线吉他调弦 |  在线节拍器 |  阿潘音乐工场 |
分类频道列表:  [吉他谱(谱天下编配)] - [吉他弹唱谱] - [古典吉他谱] - [吉他独奏谱] - [乐队总谱] - [合唱谱] - [钢琴谱] - [简谱] - [文字吉他谱]
[萨克斯谱] - [二胡谱] - [笛箫谱] - [古筝谱] - [电子琴谱] - [手风琴谱]

《我得你》
 归属歌手:刘德华
 更新日期:2008-09-07
 乐谱类别:吉他弹唱谱
 难度等级:
 传谱来源:网络谱友 [ 奥古斯丁 ] 上传
 
 阅谱时,双击鼠标屏幕自动滚动,单击即停止。
 滚屏速度 慢<< >>快  
 

1|-------|-----|-------|-----
2|-------|-----|-------|-----|
3|----32-|-----|----32-|----0|
4|3333--3|010--|3333--3|0013-|
5|-------|---31|-------|-----|
6|-------|-----|-------|-----|
  有了你我不需要 什麼的钞票 有了你看得开了 大事也化小 

1|-----------|--------|
2|------1----|--------|
3|--0033-3---|--------|
4|--------333|00--0---|
5|11---------|--31-313|
6|-----------|--------|
  凌晨落日细雨飘雪行雷时 小小的也想讲你知 

1|-------|-----|-------|-----|
2|-------|-----|----110|13---|
3|----32-|-----|-------|--0--|
4|3333--3|010--|3333---|---31|
5|-------|---31|-------|-----|
6|-------|-----|-------|-----
 *有了你变得疯了 梦中都想笑 皮鞋球鞋也对调 错得不得了 

滑音>╭╮

1|-----------|--------|
2|------1343-|╭╮2211-1|
3|--0033----3|35----3-|
4|11---------|--------|
5|-----------|--------|
6|-----------|--------|
  原来现在已碰到终生需要 爱恋这一天不缺少

1|-----------|--0011-----|
2|---1-----31|13---------|
3|223-320----|------22022|
4|-------33--|-----------|
5|-----------|-----------|
6|-----------|-----------|
 #是十个得你我被完全感化 明明就是你 早就预留在下 

1|101------|010----------|
2|---133133|---1------13-|
3|---------|----20---3--0|
4|---------|------3-0----|
5|---------|-------3-----|
6|---------|-------------|
  再奉上这一束爱的花 始终找到只得你才是我那杯茶 

1|-----------|--0011-----|
2|---1-----31|13---------|
3|223-320----|------22202|
4|-------33--|-----------|
5|-----------|-----------|
6|-----------|-----------|
 @是十个得你爱念能成功吗 贫贱或病痛一样共度餘夏 

1|101-----|10131-----|--110-01|
2|---13313|--------1-|13---3--|
3|--------|------02-3|--------|
4|--------|-----3----|--------|
5|--------|----------|--------|
6|--------|----------|--------|
  我為你有否知道吗 耗尽这一世 全程付出了 来奉上爱~情代价 

Repeat*#@

1|01-|------01013|
2|--1|--1313-----|
3|---|22---------|
4|---|-----------|
5|---|-----------|
6|---|-----------|
  没有甜 活在世间最真亦变做最假 

Repeat#

1|-----------|--0011-----|
2|---1-----31|13---------|
3|223-320----|------22202|
4|-------33--|-----------|
5|-----------|-----------|
6|-----------|-----------|
  是十个得你爱念能成功吗 贫贱或病痛 一样共度餘夏 

1|101-----|10131-----|--110-01|
2|---13313|--------1-|13---3--|
3|--------|------02-3|--------|
4|--------|-----3----|--------|
5|--------|----------|--------|
6|--------|----------|--------|
  我為你有否知道吗 耗尽这一世 全程付出了 来奉上爱情的代价

 
◎同类乐谱: [上一篇] 与非门-《Singing Machine》  [下一篇] 东来东往-《别说我的眼泪你无所谓》
::艺人相关推荐:: ::来源相关推荐::
谱名 艺人 乐谱类别 来源  
恭喜发财 刘德华 [吉他弹唱谱] [ DUODUO ]  
你不说我不懂(刘 ... 刘德华 [吉他弹唱谱] [ dnwsdcsb ... ]  
最好的来生缘 刘德华 [吉他弹唱谱] [ ilkjmb ]  
天意 刘德华 [吉他弹唱谱] [ 高级防盗 ... ]  
爱你一万年 刘德华 [吉他弹唱谱] [ DUODUO ]  
孤星泪 刘德华 [吉他弹唱谱] [ DUODUO ]  
谱名 艺人 乐谱类别 来源
The show must go ... Queen [吉他弹唱谱] [ 奥古斯丁 ... ]
我太难被感动 (li ... 蓝奕邦 [吉他弹唱谱] [ 奥古斯丁 ... ]
雾中机场 张信哲 [吉他弹唱谱] [ 奥古斯丁 ... ]
水手 迪克牛仔 ... [吉他弹唱谱] [ 奥古斯丁 ... ]
最佳损友 陈奕迅 [吉他弹唱谱] [ 奥古斯丁 ... ]
永远的想起 韦乔林 [吉他弹唱谱] [ 奥古斯丁 ... ]
分类频道列表:  [吉他谱(谱天下编配)] - [吉他弹唱谱] - [古典吉他谱] - [吉他独奏谱] - [乐队总谱] - [合唱谱] - [钢琴谱] - [简谱] - [文字吉他谱]
[萨克斯谱] - [二胡谱] - [笛箫谱] - [古筝谱] - [电子琴谱] - [手风琴谱]
谱友评论  
请在首页登录,即可发表高论。
==友情链接==

谱天下 缘分吉他 E网音乐教室 吉他谱 虫虫吉他
吉他中国 风华艺校  吉他世界网 大众乐谱网 一叶文字
搜谱 枫儿音乐 和讯弹吉他 民谣吉他 六弦琴吉他网
  中国曲谱网 中国吉他村    
        [友情链接(PR>=3)]

建议使用1024*768以上分辨率,IE5.5以上浏览器浏览本站
版权所有:谱天下专业乐谱网  苏ICP备07012261号 Email:putx123@163.com
CopyRight 2007 © www.ptx123.com, All Rights Reserved.